  0
SECTION
  2
HEADER
  9
$ACADVER
  1
AC1015
  9
$ACADMAINTVER
 70
    10
  9
$DWGCODEPAGE
  3
ANSI_1252
  9
$INSBASE
 10
0.0
 20
0.0
 30
0.0
  9
$EXTMIN
 10
317.8
 20
433.6
 30
0.0
  9
$EXTMAX
 10
328.7
 20
446.2
 30
0.0
  9
$LIMMIN
 10
0.0
 20
0.0
  9
$LIMMAX
 10
420.0
 20
297.0
  9
$ORTHOMODE
 70
     0
  9
$REGENMODE
 70
     1
  9
$FILLMODE
 70
     1
  9
$QTEXTMODE
 70
     0
  9
$MIRRTEXT
 70
     1
  9
$LTSCALE
 40
0.05
  9
$ATTMODE
 70
     1
  9
$TEXTSIZE
 40
2.5
  9
$TRACEWID
 40
1.0
  9
$TEXTSTYLE
  7
Standard
  9
$CLAYER
  8
0_testi
  9
$CELTYPE
  6
ByLayer
  9
$CECOLOR
 62
   256
  9
$CELTSCALE
 40
1.0
  9
$DISPSILH
 70
     0
  9
$DIMSCALE
 40
1.0
  9
$DIMASZ
 40
2.5
  9
$DIMEXO
 40
0.625
  9
$DIMDLI
 40
3.75
  9
$DIMRND
 40
0.0
  9
$DIMDLE
 40
0.0
  9
$DIMEXE
 40
1.25
  9
$DIMTP
 40
0.0
  9
$DIMTM
 40
0.0
  9
$DIMTXT
 40
2.5
  9
$DIMCEN
 40
2.5
  9
$DIMTSZ
 40
0.0
  9
$DIMTOL
 70
     0
  9
$DIMLIM
 70
     0
  9
$DIMTIH
 70
     0
  9
$DIMTOH
 70
     0
  9
$DIMSE1
 70
     0
  9
$DIMSE2
 70
     0
  9
$DIMTAD
 70
     1
  9
$DIMZIN
 70
     8
  9
$DIMBLK
  1

  9
$DIMASO
 70
     1
  9
$DIMSHO
 70
     1
  9
$DIMPOST
  1

  9
$DIMAPOST
  1

  9
$DIMALT
 70
     0
  9
$DIMALTD
 70
     3
  9
$DIMALTF
 40
0.03937007874016
  9
$DIMLFAC
 40
1.0
  9
$DIMTOFL
 70
     1
  9
$DIMTVP
 40
0.0
  9
$DIMTIX
 70
     0
  9
$DIMSOXD
 70
     0
  9
$DIMSAH
 70
     0
  9
$DIMBLK1
  1

  9
$DIMBLK2
  1

  9
$DIMSTYLE
  2
ISO-25
  9
$DIMCLRD
 70
     0
  9
$DIMCLRE
 70
     0
  9
$DIMCLRT
 70
     0
  9
$DIMTFAC
 40
1.0
  9
$DIMGAP
 40
0.625
  9
$DIMJUST
 70
     0
  9
$DIMSD1
 70
     0
  9
$DIMSD2
 70
     0
  9
$DIMTOLJ
 70
     0
  9
$DIMTZIN
 70
     8
  9
$DIMALTZ
 70
     0
  9
$DIMALTTZ
 70
     0
  9
$DIMUPT
 70
     0
  9
$DIMDEC
 70
     2
  9
$DIMTDEC
 70
     2
  9
$DIMALTU
 70
     2
  9
$DIMALTTD
 70
     3
  9
$DIMTXSTY
  7
Standard
  9
$DIMAUNIT
 70
     0
  9
$DIMADEC
 70
     0
  9
$DIMALTRND
 40
0.0
  9
$DIMAZIN
 70
     0
  9
$DIMDSEP
 70
    44
  9
$DIMATFIT
 70
     3
  9
$DIMFRAC
 70
     0
  9
$DIMLDRBLK
  1

  9
$DIMLUNIT
 70
     2
  9
$DIMLWD
 70
    -2
  9
$DIMLWE
 70
    -2
  9
$DIMTMOVE
 70
     0
  9
$LUNITS
 70
     2
  9
$LUPREC
 70
     4
  9
$SKETCHINC
 40
1.0
  9
$FILLETRAD
 40
10.0
  9
$AUNITS
 70
     0
  9
$AUPREC
 70
     0
  9
$MENU
  1
.
  9
$ELEVATION
 40
0.0
  9
$PELEVATION
 40
0.0
  9
$THICKNESS
 40
0.0
  9
$LIMCHECK
 70
     0
  9
$CHAMFERA
 40
10.0
  9
$CHAMFERB
 40
10.0
  9
$CHAMFERC
 40
20.0
  9
$CHAMFERD
 40
0.0
  9
$SKPOLY
 70
     0
  9
$TDCREATE
 40
2452351.737700810
  9
$TDUCREATE
 40
2452351.696034143
  9
$TDUPDATE
 40
2452351.996811805
  9
$TDUUPDATE
 40
2452351.955145139
  9
$TDINDWG
 40
0.2588331019
  9
$TDUSRTIMER
 40
0.2588083333
  9
$USRTIMER
 70
     1
  9
$ANGBASE
 50
0.0
  9
$ANGDIR
 70
     0
  9
$PDMODE
 70
     0
  9
$PDSIZE
 40
0.0
  9
$PLINEWID
 40
0.0
  9
$SPLFRAME
 70
     0
  9
$SPLINETYPE
 70
     6
  9
$SPLINESEGS
 70
     8
  9
$HANDSEED
  5
144
  9
$SURFTAB1
 70
     6
  9
$SURFTAB2
 70
     6
  9
$SURFTYPE
 70
     6
  9
$SURFU
 70
     6
  9
$SURFV
 70
     6
  9
$UCSBASE
  2

  9
$UCSNAME
  2

  9
$UCSORG
 10
0.0
 20
0.0
 30
0.0
  9
$UCSXDIR
 10
1.0
 20
0.0
 30
0.0
  9
$UCSYDIR
 10
0.0
 20
1.0
 30
0.0
  9
$UCSORTHOREF
  2

  9
$UCSORTHOVIEW
 70
     0
  9
$UCSORGTOP
 10
0.0
 20
0.0
 30
0.0
  9
$UCSORGBOTTOM
 10
0.0
 20
0.0
 30
0.0
  9
$UCSORGLEFT
 10
0.0
 20
0.0
 30
0.0
  9
$UCSORGRIGHT
 10
0.0
 20
0.0
 30
0.0
  9
$UCSORGFRONT
 10
0.0
 20
0.0
 30
0.0
  9
$UCSORGBACK
 10
0.0
 20
0.0
 30
0.0
  9
$PUCSBASE
  2

  9
$PUCSNAME
  2

  9
$PUCSORG
 10
0.0
 20
0.0
 30
0.0
  9
$PUCSXDIR
 10
1.0
 20
0.0
 30
0.0
  9
$PUCSYDIR
 10
0.0
 20
1.0
 30
0.0
  9
$PUCSORTHOREF
  2

  9
$PUCSORTHOVIEW
 70
     0
  9
$PUCSORGTOP
 10
0.0
 20
0.0
 30
0.0
  9
$PUCSORGBOTTOM
 10
0.0
 20
0.0
 30
0.0
  9
$PUCSORGLEFT
 10
0.0
 20
0.0
 30
0.0
  9
$PUCSORGRIGHT
 10
0.0
 20
0.0
 30
0.0
  9
$PUCSORGFRONT
 10
0.0
 20
0.0
 30
0.0
  9
$PUCSORGBACK
 10
0.0
 20
0.0
 30
0.0
  9
$USERI1
 70
     0
  9
$USERI2
 70
     0
  9
$USERI3
 70
     0
  9
$USERI4
 70
     0
  9
$USERI5
 70
     0
  9
$USERR1
 40
0.0
  9
$USERR2
 40
0.0
  9
$USERR3
 40
0.0
  9
$USERR4
 40
0.0
  9
$USERR5
 40
0.0
  9
$WORLDVIEW
 70
     1
  9
$SHADEDGE
 70
     3
  9
$SHADEDIF
 70
    70
  9
$TILEMODE
 70
     1
  9
$MAXACTVP
 70
    64
  9
$PINSBASE
 10
0.0
 20
0.0
 30
0.0
  9
$PLIMCHECK
 70
     0
  9
$PEXTMIN
 10
25.69999999999998
 20
19.5
 30
0.0
  9
$PEXTMAX
 10
231.3
 20
175.5
 30
0.0
  9
$PLIMMIN
 10
-20.0
 20
-7.5
  9
$PLIMMAX
 10
277.0
 20
202.4999999999999
  9
$UNITMODE
 70
     0
  9
$VISRETAIN
 70
     1
  9
$PLINEGEN
 70
     0
  9
$PSLTSCALE
 70
     1
  9
$TREEDEPTH
 70
  3020
  9
$CMLSTYLE
  2
Standard
  9
$CMLJUST
 70
     0
  9
$CMLSCALE
 40
20.0
  9
$PROXYGRAPHICS
 70
     1
  9
$MEASUREMENT
 70
     1
  9
$CELWEIGHT
370
    -1
  9
$ENDCAPS
280
     0
  9
$JOINSTYLE
280
     0
  9
$LWDISPLAY
290
     0
  9
$INSUNITS
 70
     4
  9
$HYPERLINKBASE
  1

  9
$STYLESHEET
  1

  9
$XEDIT
290
     1
  9
$CEPSNTYPE
380
     0
  9
$PSTYLEMODE
290
     1
  9
$FINGERPRINTGUID
  2
{FDEAD578-A652-11D2-9A35-0060089B3A3F}
  9
$VERSIONGUID
  2
{509FBB67-39CE-11D6-9369-00508BC01646}
  9
$EXTNAMES
290
     1
  9
$PSVPSCALE
 40
0.0
  9
$OLESTARTUP
290
     0
  0
ENDSEC
  0
SECTION
  2
CLASSES
  0
CLASS
  1
ACDBDICTIONARYWDFLT
  2
AcDbDictionaryWithDefault
  3
AutoCAD 2000
 90
        0
280
     0
281
     0
  0
CLASS
  1
ACDBPLACEHOLDER
  2
AcDbPlaceHolder
  3
AutoCAD 2000
 90
        0
280
     0
281
     0
  0
CLASS
  1
LAYOUT
  2
AcDbLayout
  3
AutoCAD 2000
 90
        0
280
     0
281
     0
  0
ENDSEC
  0
SECTION
  2
TABLES
  0
TABLE
  2
VPORT
  5
8
330
0
100
AcDbSymbolTable
 70
     3
  0
VPORT
  5
143
330
8
100
AcDbSymbolTableRecord
100
AcDbViewportTableRecord
  2
*Active
 70
     0
 10
0.0
 20
0.0
 11
1.0
 21
1.0
 12
324.65
 22
440.05
 13
321.4
 23
445.9
 14
0.1
 24
0.1
 15
10.0
 25
10.0
 16
0.0
 26
0.0
 36
1.0
 17
0.0
 27
0.0
 37
0.0
 40
13.69999999999998
 41
1.748478701825557
 42
50.0
 43
0.0
 44
0.0
 50
0.0
 51
0.0
 71
     0
 72
   100
 73
     1
 74
     3
 75
     1
 76
     0
 77
     0
 78
     0
281
     0
 65
     1
110
0.0
120
0.0
130
0.0
111
1.0
121
0.0
131
0.0
112
0.0
122
1.0
132
0.0
 79
     0
146
0.0
  0
ENDTAB
  0
TABLE
  2
LTYPE
  5
5
330
0
100
AcDbSymbolTable
 70
     7
  0
LTYPE
  5
14
330
5
100
AcDbSymbolTableRecord
100
AcDbLinetypeTableRecord
  2
ByBlock
 70
     0
  3

 72
    65
 73
     0
 40
0.0
  0
LTYPE
  5
15
330
5
100
AcDbSymbolTableRecord
100
AcDbLinetypeTableRecord
  2
ByLayer
 70
     0
  3

 72
    65
 73
     0
 40
0.0
  0
LTYPE
  5
16
330
5
100
AcDbSymbolTableRecord
100
AcDbLinetypeTableRecord
  2
Continuous
 70
     0
  3
Solid line
 72
    65
 73
     0
 40
0.0
  0
LTYPE
  5
AD
330
5
100
AcDbSymbolTableRecord
100
AcDbLinetypeTableRecord
  2
ACAD_ISO02W100
 70
     0
  3
Linea ISO __ __ __ __ __ __ __ __ __ __ __ __ _
 72
    65
 73
     2
 40
15.0
 49
12.0
 74
     0
 49
-3.0
 74
     0
  0
LTYPE
  5
AE
330
5
100
AcDbSymbolTableRecord
100
AcDbLinetypeTableRecord
  2
ACAD_ISO03W100
 70
     0
  3
Tratto ISO Spazio __    __    __    __    __   
 72
    65
 73
     2
 40
30.0
 49
12.0
 74
     0
 49
-18.0
 74
     0
  0
LTYPE
  5
AF
330
5
100
AcDbSymbolTableRecord
100
AcDbLinetypeTableRecord
  2
ACAD_ISO10W100
 70
     0
  3
Tratto ISO Punto __ . __ . __ . __ . __ . __ . 
 72
    65
 73
     4
 40
18.0
 49
12.0
 74
     0
 49
-3.0
 74
     0
 49
0.0
 74
     0
 49
-3.0
 74
     0
  0
LTYPE
  5
B0
330
5
100
AcDbSymbolTableRecord
100
AcDbLinetypeTableRecord
  2
PUNTO
 70
     0
  3
Punto . . . . . . . . . . . . . . . . . . . . .
 72
    65
 73
     2
 40
6.349999999999999
 49
0.0
 74
     0
 49
-6.349999999999999
 74
     0
  0
LTYPE
  5
B1
330
5
100
AcDbSymbolTableRecord
100
AcDbLinetypeTableRecord
  2
PUNTO2
 70
     0
  3
Punto (.5x) ...................................
 72
    65
 73
     2
 40
3.174999999999999
 49
0.0
 74
     0
 49
-3.174999999999999
 74
     0
  0
LTYPE
  5
B2
330
5
100
AcDbSymbolTableRecord
100
AcDbLinetypeTableRecord
  2
PUNTOX2
 70
     0
  3
Punto (2x) .  .  .  .  .  .  .  .  .  .  .  .  
 72
    65
 73
     2
 40
12.7
 49
0.0
 74
     0
 49
-12.7
 74
     0
  0
ENDTAB
  0
TABLE
  2
LAYER
  5
2
330
0
100
AcDbSymbolTable
 70
    12
  0
LAYER
  5
10
330
2
100
AcDbSymbolTableRecord
100
AcDbLayerTableRecord
  2
0
 70
     1
 62
     7
  6
Continuous
370
    -3
390
F
  0
LAYER
  5
80
330
2
100
AcDbSymbolTableRecord
100
AcDbLayerTableRecord
  2
0_assi
 70
     1
 62
     5
  6
Continuous
370
    -3
390
F
  0
LAYER
  5
81
330
2
100
AcDbSymbolTableRecord
100
AcDbLayerTableRecord
  2
0_linee_costruzione
 70
     1
 62
     6
  6
ACAD_ISO02W100
370
    -3
390
F
  0
LAYER
  5
82
330
2
100
AcDbSymbolTableRecord
100
AcDbLayerTableRecord
  2
3d_muri
 70
     0
 62
    40
  6
Continuous
370
    -3
390
F
  0
LAYER
  5
83
330
2
100
AcDbSymbolTableRecord
100
AcDbLayerTableRecord
  2
2d_muri
 70
     1
 62
     1
  6
Continuous
370
    -3
390
F
  0
LAYER
  5
84
330
2
100
AcDbSymbolTableRecord
100
AcDbLayerTableRecord
  2
2d_simboli
 70
     1
 62
     1
  6
Continuous
370
    -3
390
F
  0
LAYER
  5
85
330
2
100
AcDbSymbolTableRecord
100
AcDbLayerTableRecord
  2
2d_serramenti
 70
     1
 62
    82
  6
Continuous
370
    -3
390
F
  0
LAYER
  5
86
330
2
100
AcDbSymbolTableRecord
100
AcDbLayerTableRecord
  2
3d_serramenti
 70
     1
 62
    51
  6
Continuous
370
    -3
390
F
  0
LAYER
  5
87
330
2
100
AcDbSymbolTableRecord
100
AcDbLayerTableRecord
  2
2d_pavimento
 70
     1
 62
     3
  6
Continuous
370
    -3
390
F
  0
LAYER
  5
88
330
2
100
AcDbSymbolTableRecord
100
AcDbLayerTableRecord
  2
3d_pavimento
 70
     1
 62
   140
  6
Continuous
370
    -3
390
F
  0
LAYER
  5
BC
330
2
100
AcDbSymbolTableRecord
100
AcDbLayerTableRecord
  2
0_griglia_metrica
 70
     1
 62
   246
  6
Continuous
370
    -3
390
F
  0
LAYER
  5
D1
330
2
100
AcDbSymbolTableRecord
100
AcDbLayerTableRecord
  2
0_testi
 70
     0
 62
     7
  6
Continuous
370
    -3
390
F
  0
ENDTAB
  0
TABLE
  2
STYLE
  5
3
330
0
100
AcDbSymbolTable
 70
     2
  0
STYLE
  5
11
330
3
100
AcDbSymbolTableRecord
100
AcDbTextStyleTableRecord
  2
Standard
 70
     0
 40
0.0
 41
1.0
 50
0.0
 71
     0
 42
2.5
  3
txt
  4

  0
STYLE
  5
AC
330
3
100
AcDbSymbolTableRecord
100
AcDbTextStyleTableRecord
  2

 70
     1
 40
0.0
 41
1.0
 50
0.0
 71
     0
 42
2.5
  3
ltypeshp.shx
  4

  0
ENDTAB
  0
TABLE
  2
VIEW
  5
6
330
0
100
AcDbSymbolTable
 70
     0
  0
ENDTAB
  0
TABLE
  2
UCS
  5
7
330
0
100
AcDbSymbolTable
 70
     0
  0
ENDTAB
  0
TABLE
  2
APPID
  5
9
330
0
100
AcDbSymbolTable
 70
     3
  0
APPID
  5
12
330
9
100
AcDbSymbolTableRecord
100
AcDbRegAppTableRecord
  2
ACAD
 70
     0
  0
APPID
  5
78
330
9
100
AcDbSymbolTableRecord
100
AcDbRegAppTableRecord
  2
DCO15
 70
     0
  0
APPID
  5
7A
330
9
100
AcDbSymbolTableRecord
100
AcDbRegAppTableRecord
  2
ADE
 70
     0
  0
ENDTAB
  0
TABLE
  2
DIMSTYLE
  5
A
330
0
100
AcDbSymbolTable
 70
     1
100
AcDbDimStyleTable
 71
     0
  0
DIMSTYLE
105
27
330
A
100
AcDbSymbolTableRecord
100
AcDbDimStyleTableRecord
  2
ISO-25
 70
     0
 41
2.5
 42
0.625
 43
3.75
 44
1.25
 73
     0
 74
     0
 77
     1
 78
     8
140
2.5
141
2.5
143
0.03937007874016
147
0.625
171
     3
172
     1
271
     2
272
     2
274
     3
278
    44
283
     0
284
     8
340
11
  0
ENDTAB
  0
TABLE
  2
BLOCK_RECORD
  5
1
330
0
100
AcDbSymbolTable
 70
     1
  0
BLOCK_RECORD
  5
1F
330
1
100
AcDbSymbolTableRecord
100
AcDbBlockTableRecord
  2
*Model_Space
340
22
  0
BLOCK_RECORD
  5
55
330
1
100
AcDbSymbolTableRecord
100
AcDbBlockTableRecord
  2
*Paper_Space
340
56
  0
BLOCK_RECORD
  5
50
330
1
100
AcDbSymbolTableRecord
100
AcDbBlockTableRecord
  2
*Paper_Space0
340
51
  0
ENDTAB
  0
ENDSEC
  0
SECTION
  2
BLOCKS
  0
BLOCK
  5
20
330
1F
100
AcDbEntity
  8
0
100
AcDbBlockBegin
  2
*Model_Space
 70
     0
 10
0.0
 20
0.0
 30
0.0
  3
*Model_Space
  1

  0
ENDBLK
  5
21
330
1F
100
AcDbEntity
  8
0
100
AcDbBlockEnd
  0
BLOCK
  5
57
330
55
100
AcDbEntity
 67
     1
  8
0
100
AcDbBlockBegin
  2
*Paper_Space
 70
     0
 10
0.0
 20
0.0
 30
0.0
  3
*Paper_Space
  1

  0
ENDBLK
  5
58
330
55
100
AcDbEntity
 67
     1
  8
0
100
AcDbBlockEnd
  0
BLOCK
  5
52
330
50
100
AcDbEntity
  8
0
100
AcDbBlockBegin
  2
*Paper_Space0
 70
     0
 10
0.0
 20
0.0
 30
0.0
  3
*Paper_Space0
  1

  0
VIEWPORT
  5
69
330
50
100
AcDbEntity
  8
0
100
AcDbViewport
 10
128.4999999999999
 20
97.5
 30
0.0
 40
384.7606204379562
 41
222.1799999999999
 69
     0
 12
128.4999999999999
 22
97.5
 13
0.0
 23
0.0
 14
10.0
 24
10.0
 15
10.0
 25
10.0
 16
0.0
 26
0.0
 36
1.0
 17
0.0
 27
0.0
 37
0.0
 42
50.0
 43
0.0
 44
0.0
 45
222.1799999999999
 50
0.0
 51
0.0
 72
   100
 90
    32800
  1

281
     0
 71
     1
 74
     0
110
0.0
120
0.0
130
0.0
111
1.0
121
0.0
131
0.0
112
0.0
122
1.0
132
0.0
 79
     0
146
0.0
  0
VIEWPORT
  5
6B
330
50
100
AcDbEntity
  8
0
100
AcDbViewport
 10
128.4999999999999
 20
97.5
 30
0.0
 40
205.6
 41
156.0
 69
     0
 12
210.0
 22
148.5
 13
0.0
 23
0.0
 14
10.0
 24
10.0
 15
10.0
 25
10.0
 16
0.0
 26
0.0
 36
1.0
 17
0.0
 27
0.0
 37
0.0
 42
50.0
 43
0.0
 44
0.0
 45
322.4558219652111
 50
0.0
 51
0.0
 72
   100
 90
    32864
  1

281
     0
 71
     1
 74
     0
110
0.0
120
0.0
130
0.0
111
1.0
121
0.0
131
0.0
112
0.0
122
1.0
132
0.0
 79
     0
146
0.0
  0
ENDBLK
  5
53
330
50
100
AcDbEntity
  8
0
100
AcDbBlockEnd
  0
ENDSEC
  0
SECTION
  2
ENTITIES
  0
XLINE
  5
89
330
1F
100
AcDbEntity
  8
0_linee_costruzione
100
AcDbXline
 10
336.7
 20
446.2
 30
0.0
 11
1.0
 21
0.0
 31
0.0
  0
XLINE
  5
8A
330
1F
100
AcDbEntity
  8
0_linee_costruzione
100
AcDbXline
 10
321.1
 20
508.6
 30
0.0
 11
0.0
 21
-1.0
 31
0.0
  0
XLINE
  5
8B
330
1F
100
AcDbEntity
  8
0_linee_costruzione
100
AcDbXline
 10
321.4
 20
508.6
 30
0.0
 11
0.0
 21
-1.0
 31
0.0
  0
XLINE
  5
8C
330
1F
100
AcDbEntity
  8
0_linee_costruzione
100
AcDbXline
 10
336.7
 20
445.9
 30
0.0
 11
1.0
 21
0.0
 31
0.0
  0
XLINE
  5
91
330
1F
100
AcDbEntity
  8
0_linee_costruzione
100
AcDbXline
 10
327.9
 20
508.6
 30
0.0
 11
0.0
 21
-1.0
 31
0.0
  0
XLINE
  5
92
330
1F
100
AcDbEntity
  8
0_linee_costruzione
100
AcDbXline
 10
328.2
 20
508.6
 30
0.0
 11
0.0
 21
-1.0
 31
0.0
  0
XLINE
  5
95
330
1F
100
AcDbEntity
  8
0_linee_costruzione
100
AcDbXline
 10
336.7
 20
433.9
 30
0.0
 11
1.0
 21
0.0
 31
0.0
  0
XLINE
  5
96
330
1F
100
AcDbEntity
  8
0_linee_costruzione
100
AcDbXline
 10
336.7
 20
433.6
 30
0.0
 11
1.0
 21
0.0
 31
0.0
  0
XLINE
  5
9C
330
1F
100
AcDbEntity
  8
0_linee_costruzione
100
AcDbXline
 10
320.6
 20
508.6
 30
0.0
 11
0.0
 21
-1.0
 31
0.0
  0
XLINE
  5
9D
330
1F
100
AcDbEntity
  8
0_linee_costruzione
100
AcDbXline
 10
328.7
 20
508.6
 30
0.0
 11
0.0
 21
-1.0
 31
0.0
  0
LINE
  5
9E
330
1F
100
AcDbEntity
  8
2d_muri
100
AcDbLine
 10
320.6
 20
446.2
 30
0.0
 11
328.7
 21
446.2
 31
0.0
  0
LINE
  5
9F
330
1F
100
AcDbEntity
  8
2d_muri
100
AcDbLine
 10
321.4
 20
445.9
 30
0.0
 11
327.9
 21
445.9
 31
0.0
  0
LINE
  5
A0
330
1F
100
AcDbEntity
  8
2d_muri
100
AcDbLine
 10
327.9
 20
445.9
 30
0.0
 11
327.9
 21
433.9
 31
0.0
  0
LINE
  5
A1
330
1F
100
AcDbEntity
  8
2d_muri
100
AcDbLine
 10
327.9
 20
433.9
 30
0.0
 11
321.4
 21
433.9
 31
0.0
  0
LINE
  5
A2
330
1F
100
AcDbEntity
  8
2d_muri
100
AcDbLine
 10
321.4
 20
433.9
 30
0.0
 11
321.4
 21
445.9
 31
0.0
  0
LINE
  5
A3
330
1F
100
AcDbEntity
  8
2d_muri
100
AcDbLine
 10
320.6
 20
445.9
 30
0.0
 11
321.1
 21
445.9
 31
0.0
  0
LINE
  5
A4
330
1F
100
AcDbEntity
  8
2d_muri
100
AcDbLine
 10
321.1
 20
445.9
 30
0.0
 11
321.1
 21
433.9
 31
0.0
  0
LINE
  5
A5
330
1F
100
AcDbEntity
  8
2d_muri
100
AcDbLine
 10
321.1
 20
433.9
 30
0.0
 11
320.6
 21
433.9
 31
0.0
  0
LINE
  5
A6
330
1F
100
AcDbEntity
  8
2d_muri
100
AcDbLine
 10
328.7
 20
433.9
 30
0.0
 11
328.2
 21
433.9
 31
0.0
  0
LINE
  5
A7
330
1F
100
AcDbEntity
  8
2d_muri
100
AcDbLine
 10
328.2
 20
433.9
 30
0.0
 11
328.2
 21
445.9
 31
0.0
  0
LINE
  5
A8
330
1F
100
AcDbEntity
  8
2d_muri
100
AcDbLine
 10
328.2
 20
445.9
 30
0.0
 11
328.7
 21
445.9
 31
0.0
  0
LINE
  5
A9
330
1F
100
AcDbEntity
  8
2d_muri
100
AcDbLine
 10
320.6
 20
433.6
 30
0.0
 11
328.7
 21
433.6
 31
0.0
  0
LWPOLYLINE
  5
AA
330
1F
100
AcDbEntity
  8
2d_pavimento
100
AcDbPolyline
 90
        4
 70
     1
 43
0.0
 10
321.1
 20
433.6
 10
328.2
 20
433.6
 10
328.2
 20
446.2
 10
321.1
 20
446.2
  0
LWPOLYLINE
  5
B3
330
1F
100
AcDbEntity
  8
3d_muri
100
AcDbPolyline
 90
       13
 70
     0
 43
0.0
 10
320.6
 20
446.2
 10
328.7
 20
446.2
 10
328.7
 20
445.9
 10
328.2
 20
445.9
 10
328.2
 20
433.9
 10
328.7
 20
433.9
 10
328.7
 20
433.6
 10
320.6
 20
433.6
 10
320.6
 20
433.9
 10
321.1
 20
433.9
 10
321.1
 20
445.9
 10
320.6
 20
445.9
 10
320.6
 20
446.2
  0
LWPOLYLINE
  5
B4
330
1F
100
AcDbEntity
  8
3d_muri
100
AcDbPolyline
 90
        4
 70
     1
 43
0.0
 10
321.4
 20
433.9
 10
327.9
 20
433.9
 10
327.9
 20
445.9
 10
321.4
 20
445.9
  0
LWPOLYLINE
  5
B5
330
1F
100
AcDbEntity
  8
3d_pavimento
100
AcDbPolyline
 90
        4
 70
     1
 43
0.0
 10
321.1
 20
446.2
 10
328.2
 20
446.2
 10
328.2
 20
433.6
 10
321.1
 20
433.6
  0
XLINE
  5
BD
330
1F
100
AcDbEntity
  8
0_griglia_metrica
100
AcDbXline
 10
321.4
 20
445.9
 30
0.0
 11
-1.0
 21
0.0
 31
0.0
  0
XLINE
  5
BE
330
1F
100
AcDbEntity
  8
0_griglia_metrica
100
AcDbXline
 10
319.4
 20
444.9
 30
0.0
 11
1.0
 21
0.0
 31
0.0
  0
XLINE
  5
BF
330
1F
100
AcDbEntity
  8
0_griglia_metrica
100
AcDbXline
 10
330.4
 20
443.9
 30
0.0
 11
-1.0
 21
0.0
 31
0.0
  0
XLINE
  5
C0
330
1F
100
AcDbEntity
  8
0_griglia_metrica
100
AcDbXline
 10
330.4
 20
442.9
 30
0.0
 11
-1.0
 21
0.0
 31
0.0
  0
XLINE
  5
C1
330
1F
100
AcDbEntity
  8
0_griglia_metrica
100
AcDbXline
 10
330.4
 20
441.9
 30
0.0
 11
-1.0
 21
0.0
 31
0.0
  0
XLINE
  5
C2
330
1F
100
AcDbEntity
  8
0_griglia_metrica
100
AcDbXline
 10
330.4
 20
440.9
 30
0.0
 11
-1.0
 21
0.0
 31
0.0
  0
XLINE
  5
C3
330
1F
100
AcDbEntity
  8
0_griglia_metrica
100
AcDbXline
 10
330.4
 20
439.9
 30
0.0
 11
-1.0
 21
0.0
 31
0.0
  0
XLINE
  5
C4
330
1F
100
AcDbEntity
  8
0_griglia_metrica
100
AcDbXline
 10
330.4
 20
438.9
 30
0.0
 11
-1.0
 21
0.0
 31
0.0
  0
XLINE
  5
C5
330
1F
100
AcDbEntity
  8
0_griglia_metrica
100
AcDbXline
 10
330.4
 20
437.9
 30
0.0
 11
-1.0
 21
0.0
 31
0.0
  0
XLINE
  5
C6
330
1F
100
AcDbEntity
  8
0_griglia_metrica
100
AcDbXline
 10
330.4
 20
436.9
 30
0.0
 11
-1.0
 21
0.0
 31
0.0
  0
XLINE
  5
C7
330
1F
100
AcDbEntity
  8
0_griglia_metrica
100
AcDbXline
 10
330.4
 20
435.9
 30
0.0
 11
-1.0
 21
0.0
 31
0.0
  0
XLINE
  5
C8
330
1F
100
AcDbEntity
  8
0_griglia_metrica
100
AcDbXline
 10
330.4
 20
434.9
 30
0.0
 11
-1.0
 21
0.0
 31
0.0
  0
XLINE
  5
C9
330
1F
100
AcDbEntity
  8
0_griglia_metrica
100
AcDbXline
 10
330.4
 20
433.9
 30
0.0
 11
-1.0
 21
0.0
 31
0.0
  0
XLINE
  5
CA
330
1F
100
AcDbEntity
  8
0_griglia_metrica
100
AcDbXline
 10
321.4
 20
445.9
 30
0.0
 11
0.0
 21
-1.0
 31
0.0
  0
XLINE
  5
CB
330
1F
100
AcDbEntity
  8
0_griglia_metrica
100
AcDbXline
 10
322.4
 20
445.9
 30
0.0
 11
0.0
 21
-1.0
 31
0.0
  0
XLINE
  5
CC
330
1F
100
AcDbEntity
  8
0_griglia_metrica
100
AcDbXline
 10
323.4
 20
445.9
 30
0.0
 11
0.0
 21
-1.0
 31
0.0
  0
XLINE
  5
CD
330
1F
100
AcDbEntity
  8
0_griglia_metrica
100
AcDbXline
 10
324.4
 20
445.9
 30
0.0
 11
0.0
 21
-1.0
 31
0.0
  0
XLINE
  5
CE
330
1F
100
AcDbEntity
  8
0_griglia_metrica
100
AcDbXline
 10
325.4
 20
445.9
 30
0.0
 11
0.0
 21
-1.0
 31
0.0
  0
XLINE
  5
CF
330
1F
100
AcDbEntity
  8
0_griglia_metrica
100
AcDbXline
 10
326.4
 20
445.9
 30
0.0
 11
0.0
 21
-1.0
 31
0.0
  0
XLINE
  5
D0
330
1F
100
AcDbEntity
  8
0_griglia_metrica
100
AcDbXline
 10
327.4
 20
445.9
 30
0.0
 11
0.0
 21
-1.0
 31
0.0
  0
MTEXT
  5
D2
330
1F
100
AcDbEntity
  8
0_testi
100
AcDbMText
 10
322.2
 20
441.6
 30
0.0
 40
0.3
 41
9.400000000000011
 71
     1
 72
     5
  1
{\fArial|b0|i0|c0|p34;spazio disponibile: 6.5x12 m}
 73
     1
 44
1.0
  0
MTEXT
  5
D4
330
1F
100
AcDbEntity
  8
0_testi
100
AcDbMText
 10
317.8
 20
437.7
 30
0.0
 40
0.6
 41
9.200000000000034
 71
     1
 72
     5
  1
{\fArial|b0|i0|c0|p34;Attenzione: attivare i layer congelati }
 73
     1
 44
1.0
  0
VIEWPORT
  5
6F
330
55
100
AcDbEntity
 67
     1
  8
0
100
AcDbViewport
 10
128.4999999999999
 20
97.5
 30
0.0
 40
384.7606204379562
 41
222.1799999999999
 68
     1
 69
     1
 12
128.4999999999999
 22
97.5
 13
0.0
 23
0.0
 14
10.0
 24
10.0
 15
10.0
 25
10.0
 16
0.0
 26
0.0
 36
1.0
 17
0.0
 27
0.0
 37
0.0
 42
50.0
 43
0.0
 44
0.0
 45
222.1799999999999
 50
0.0
 51
0.0
 72
   100
 90
    32800
  1

281
     0
 71
     1
 74
     0
110
0.0
120
0.0
130
0.0
111
1.0
121
0.0
131
0.0
112
0.0
122
1.0
132
0.0
 79
     0
146
0.0
  0
VIEWPORT
  5
71
330
55
100
AcDbEntity
 67
     1
  8
0
100
AcDbViewport
 10
128.4999999999999
 20
97.5
 30
0.0
 40
205.6
 41
156.0
 68
     2
 69
     2
 12
210.0
 22
148.5
 13
0.0
 23
0.0
 14
10.0
 24
10.0
 15
10.0
 25
10.0
 16
0.0
 26
0.0
 36
1.0
 17
0.0
 27
0.0
 37
0.0
 42
50.0
 43
0.0
 44
0.0
 45
322.4558219652111
 50
0.0
 51
0.0
 72
   100
 90
    32864
  1

281
     0
 71
     1
 74
     0
110
0.0
120
0.0
130
0.0
111
1.0
121
0.0
131
0.0
112
0.0
122
1.0
132
0.0
 79
     0
146
0.0
  0
ENDSEC
  0
SECTION
  2
OBJECTS
  0
DICTIONARY
  5
C
330
0
100
AcDbDictionary
281
     1
  3
ACAD_GROUP
350
D
  3
ACAD_LAYOUT
350
1A
  3
ACAD_MLINESTYLE
350
17
  3
ACAD_PLOTSETTINGS
350
19
  3
ACAD_PLOTSTYLENAME
350
E
  3
ADE_QUERY_LIBRARY
350
7B
  3
ASE_INDEX_DICTIONARY
350
13F
  3
DWGPROPS
350
142
1001
ADE
1000
ADE02C004
1000
[Query]
1000
CaseSensitiveMatch=0
1000
SaveCurrQueryInSession=1
1000
MkSelSetWithQryObj=0
1000
ShowBlockAsInsPt=0
1000
CreateAssociativeHatchObjects=0
1000
ReferenceBoundaryForAreaLocation=1
1000
ShowImageAsBoundary=1
1000
DefaultJoinOperator=2
1000
ColorForAdd=red
1000
ColorForRemove=red
1000
BlockLocnForQuery=1
1000
TextLocnForQuery=1
1000
[Save Back]
1000
RedefineBlockDefinitions=1
1000
RedefineLayerDefinitions=1
1000
RedefineTextStyleDefinitions=1
1000
RemoveUnusedGroups=1
1000
EraseSavedBackObjects=1
1000
RemoveLockAfterSave=1
1000
CreateHistoryFileOfChanges=0
1000
CreateBackupFileOfSourceDwg=1
1000
DontAddObjectsToSaveSet=0
1000
MarkObjectsForEditingWithoutPrompting=0
1000
[Coordinate Transformation]
1000
RestoreLastActiveDwgsOnStartup=1
1000
ActivateDwgsOnAttach=1
1000
AdjustSizesAndScalesForChangesInUnits=1
1000
AdjustRotationsForMapDistortions=1
1000
AdjustSizesAndScalesForMapDistortions=1
1000
AdjustElevations=1
1000
AdjustZeroRotationObjects=1
1000
ReconnectDbOnWSOpen=1
1000
NoOfSQLConditionsInHistory=10
  0
DICTIONARY
  5
D
102
{ACAD_REACTORS
330
C
102
}
330
C
100
AcDbDictionary
281
     1
  0
DICTIONARY
  5
1A
102
{ACAD_REACTORS
330
C
102
}
330
C
100
AcDbDictionary
281
     1
  3
Layout1
350
51
  3
Layout2
350
56
  3
Model
350
22
  0
DICTIONARY
  5
17
102
{ACAD_REACTORS
330
C
102
}
330
C
100
AcDbDictionary
281
     1
  3
Standard
350
18
  0
DICTIONARY
  5
19
102
{ACAD_REACTORS
330
C
102
}
330
C
100
AcDbDictionary
281
     1
  0
ACDBDICTIONARYWDFLT
  5
E
102
{ACAD_REACTORS
330
C
102
}
330
C
100
AcDbDictionary
281
     1
  3
Normal
350
F
100
AcDbDictionaryWithDefault
340
F
  0
DICTIONARY
  5
7B
102
{ACAD_REACTORS
330
C
102
}
330
C
100
AcDbDictionary
281
     1
  3
_CurrQry
350
141
  0
DICTIONARY
  5
13F
102
{ACAD_REACTORS
330
C
102
}
330
C
100
AcDbDictionary
281
     1
  3
ASEBlockHierarchyIndexRecord
350
140
1001
DCO15
1040
1429815020.54
  0
XRECORD
  5
142
102
{ACAD_REACTORS
330
C
102
}
330
C
100
AcDbXrecord
280
     1
  1
DWGPROPS COOKIE
  2

  3

  4

  6

  7

  8
maurizio
  9

300
=
301
=
302
=
303
=
304
=
305
=
306
=
307
=
308
=
309
=
 40
0.2588305555555555
 41
2452351.73770081
 42
2452351.996811805
  1

 90
        0
  0
LAYOUT
  5
51
102
{ACAD_REACTORS
330
1A
102
}
330
1A
100
AcDbPlotSettings
  1

  2
none_device
  4
ISO_A4_(210.00_x_297.00_MM)
  6

 40
7.5
 41
20.0
 42
7.5
 43
20.0
 44
210.0
 45
297.0
 46
0.0
 47
0.0
 48
0.0
 49
0.0
140
0.0
141
0.0
142
1.0
143
1.0
 70
   688
 72
     1
 73
     1
 74
     5
  7

 75
    16
147
1.0
148
0.0
149
0.0
100
AcDbLayout
  1
Layout1
 70
     1
 71
     1
 10
-20.0
 20
-7.5
 11
277.0
 21
202.4999999999999
 12
0.0
 22
0.0
 32
0.0
 14
25.69999999999998
 24
19.5
 34
0.0
 15
231.3
 25
175.5
 35
0.0
146
0.0
 13
0.0
 23
0.0
 33
0.0
 16
1.0
 26
0.0
 36
0.0
 17
0.0
 27
1.0
 37
0.0
 76
     0
330
50
331
69
  0
LAYOUT
  5
56
102
{ACAD_REACTORS
330
1A
102
}
330
1A
100
AcDbPlotSettings
  1

  2
none_device
  4
ISO_A4_(210.00_x_297.00_MM)
  6

 40
7.5
 41
20.0
 42
7.5
 43
20.0
 44
210.0
 45
297.0
 46
0.0
 47
0.0
 48
0.0
 49
0.0
140
0.0
141
0.0
142
1.0
143
1.0
 70
   688
 72
     1
 73
     1
 74
     5
  7

 75
    16
147
1.0
148
0.0
149
0.0
100
AcDbLayout
  1
Layout2
 70
     1
 71
     2
 10
-20.0
 20
-7.5
 11
277.0
 21
202.4999999999999
 12
0.0
 22
0.0
 32
0.0
 14
25.69999999999998
 24
19.5
 34
0.0
 15
231.3
 25
175.5
 35
0.0
146
0.0
 13
0.0
 23
0.0
 33
0.0
 16
1.0
 26
0.0
 36
0.0
 17
0.0
 27
1.0
 37
0.0
 76
     0
330
55
331
6F
  0
LAYOUT
  5
22
102
{ACAD_REACTORS
330
1A
102
}
330
1A
100
AcDbPlotSettings
  1

  2
none_device
  4
ISO_A4_(210.00_x_297.00_MM)
  6

 40
7.5
 41
20.0
 42
7.5
 43
20.0
 44
210.0
 45
297.0
 46
0.0
 47
0.0
 48
0.0
 49
0.0
140
0.0
141
0.0
142
1.0
143
3.710263363444789
 70
 11952
 72
     1
 73
     1
 74
     0
  7

 75
     0
147
0.2695226462499825
148
0.0847485786563311
149
0.0498590386253568
100
AcDbLayout
  1
Model
 70
     1
 71
     0
 10
0.0
 20
0.0
 11
12.0
 21
9.0
 12
0.0
 22
0.0
 32
0.0
 14
0.0
 24
0.0
 34
0.0
 15
0.0
 25
0.0
 35
0.0
146
0.0
 13
0.0
 23
0.0
 33
0.0
 16
1.0
 26
0.0
 36
0.0
 17
0.0
 27
1.0
 37
0.0
 76
     0
330
1F
  0
MLINESTYLE
  5
18
102
{ACAD_REACTORS
330
17
102
}
330
17
100
AcDbMlineStyle
  2
STANDARD
 70
     0
  3

 62
   256
 51
90.0
 52
90.0
 71
     2
 49
0.5
 62
   256
  6
BYLAYER
 49
-0.5
 62
   256
  6
BYLAYER
  0
ACDBPLACEHOLDER
  5
F
102
{ACAD_REACTORS
330
E
102
}
330
E
  0
XRECORD
  5
141
102
{ACAD_REACTORS
330
7B
102
}
330
7B
100
AcDbXrecord
280
     1
1000
ADE02C001
1070
     1
1070
     0
1002
{
1002
}
1002
{
1002
}
1002
{
1002
}
1000

  0
XRECORD
  5
140
102
{ACAD_REACTORS
330
13F
102
}
330
13F
100
AcDbXrecord
280
     1
  0
ENDSEC
  0
EOF
